/ Forside/ Interesser / Fritid / Musik / Spørgsmål
Login
Glemt dit kodeord?
Brugernavn 

Kodeord  


Reklame
Top 10 brugere
Musik
#NavnPoint
Nordsted1 29914
dova 20615
ans 20576
Klaudi 18363
Kazistuta 18027
3773 17729
boibbo 13999
o.v.n. 13226
refi 11088
10  tedd 8824
"Kun Minderne Tilbage"
Fra : Elfredo
Vist : 1155 gange
50 point
Dato : 16-12-04 18:00

Er der noen der kan hjælpe mig at finde akkorderne til
"kun minderne tilbage" fra angora af..?
Ville jeg værdsætte meget.!
Tak..

Frederik.

 
 
Kommentar
Fra : sweetysun


Dato : 30-12-04 19:25

den er lavet over en nik og jay sang, som jeg ikke tror vil være noget problem at finde noderne til.
De er meget identiske.

Kommentar
Fra : thaBLAST


Dato : 30-12-04 19:33

hva hedder sangen??


Kommentar
Fra : sweetysun


Dato : 30-12-04 19:56

teksten er her, og den er selvfølgelig ikke svær at finde..

men for at være helt ærlig så kan jeg ikks huske hvad det er for en de har lavet en parodi på. For jeg bryder mig virkeligt ikke om Dem. Altså nik og Jay.

Den 3. september 98 for fanden
Første dag på højskole og
Første gang vi mødte hinanden
4 måneder på grøn fløj
Vi hang altid ud sammen
Tiden gik så stærkt YO
Det var fryd og fucking gammen

Vi havde alle mulige fede fag f.eks. friluftsliv
Vi legede vikingeleg og byggede svedehytter af siv
Sov i en biuak det var noget der var godt for fællesskabet
Prøvede rappelling YO det var fedt bare hænge der i rebet

Nu er tiden gået
Fuck hvor var det fedt
Kun minderne tilbage
Fuck hvor var det fedt
Den svedigste tid
Fuck hvor var det fedt
Fuck hvor var det fedt

Ja det var så fedt
Så fucking hot at gå på højskole
Det styrede for hårdt
Ja det var bigtime
Så ryst din røv til den her

Hvad fanden skal jeg sige
Det var så fedt bare at være der
Der var madhold vi lavede altid
Kylling med kartofler og ærter
Og vi havde et fag der hed japansk keramik
Det var rigtigt fedt at lave askebægre
Med en fremmed teknik

Når vi havde rytmisk sammenspil
Så hyggede vi max
Te og kage, wowguitar
Annita spillede sax
Og når vi havde drama
Slap vi følelserne løs
Rico lærte at græde på kommando
Men han var også bøs’

Nu er tiden gået
Fuck hvor var det fedt
Kun minderne tilbage
Fuck hvor var det fedt.
Den svedigste tid
Fuck hvor var det fedt
Fuck hvor var det fedt
Ja det var så fedt
Så fucking hot at gå på højskole
Det styrede for hårdt
Ja det var bigtime
Så ryst din røv til
det var så fedt
Så fucking hot at gå på højskole
Det styrede for hårdt
Ja det var bigtime
Så ryst din røv til den her

Men pludselig kom dagen
Hvor vi skulle sige farvel
Alle stod og græd
Selv lærerne var med
Folk udvekslede telefonnumre
Så vi kunne snakkes ved
Vi skal holde forbindelsen ved lige
I al evighed

Fuck hvor var det........Så fedt
Så fucking hot at gå på højskole
Det styrede for hårdt
Ja det var bigtime
Så ryst din røv
Ja det var så fedt
Så fucking hot at gå på højskole
Det styrede for hårdt
Ja det var bigtime
Så ryst din røv til den her.



Kommentar
Fra : sweetysun


Dato : 30-12-04 19:56

teksten er her, og den er selvfølgelig ikke svær at finde..

men for at være helt ærlig så kan jeg ikks huske hvad det er for en de har lavet en parodi på. For jeg bryder mig virkeligt ikke om Dem. Altså nik og Jay.

Den 3. september 98 for fanden
Første dag på højskole og
Første gang vi mødte hinanden
4 måneder på grøn fløj
Vi hang altid ud sammen
Tiden gik så stærkt YO
Det var fryd og fucking gammen

Vi havde alle mulige fede fag f.eks. friluftsliv
Vi legede vikingeleg og byggede svedehytter af siv
Sov i en biuak det var noget der var godt for fællesskabet
Prøvede rappelling YO det var fedt bare hænge der i rebet

Nu er tiden gået
Fuck hvor var det fedt
Kun minderne tilbage
Fuck hvor var det fedt
Den svedigste tid
Fuck hvor var det fedt
Fuck hvor var det fedt

Ja det var så fedt
Så fucking hot at gå på højskole
Det styrede for hårdt
Ja det var bigtime
Så ryst din røv til den her

Hvad fanden skal jeg sige
Det var så fedt bare at være der
Der var madhold vi lavede altid
Kylling med kartofler og ærter
Og vi havde et fag der hed japansk keramik
Det var rigtigt fedt at lave askebægre
Med en fremmed teknik

Når vi havde rytmisk sammenspil
Så hyggede vi max
Te og kage, wowguitar
Annita spillede sax
Og når vi havde drama
Slap vi følelserne løs
Rico lærte at græde på kommando
Men han var også bøs’

Nu er tiden gået
Fuck hvor var det fedt
Kun minderne tilbage
Fuck hvor var det fedt.
Den svedigste tid
Fuck hvor var det fedt
Fuck hvor var det fedt
Ja det var så fedt
Så fucking hot at gå på højskole
Det styrede for hårdt
Ja det var bigtime
Så ryst din røv til
det var så fedt
Så fucking hot at gå på højskole
Det styrede for hårdt
Ja det var bigtime
Så ryst din røv til den her

Men pludselig kom dagen
Hvor vi skulle sige farvel
Alle stod og græd
Selv lærerne var med
Folk udvekslede telefonnumre
Så vi kunne snakkes ved
Vi skal holde forbindelsen ved lige
I al evighed

Fuck hvor var det........Så fedt
Så fucking hot at gå på højskole
Det styrede for hårdt
Ja det var bigtime
Så ryst din røv
Ja det var så fedt
Så fucking hot at gå på højskole
Det styrede for hårdt
Ja det var bigtime
Så ryst din røv til den her.



Kommentar
Fra : sweetysun


Dato : 30-12-04 20:06

tag mig tilbage. - Tror jeg.

Kommentar
Fra : jakobbschmidt


Dato : 04-01-05 14:07

Hej, jeg lovede vist at skive akkordene ned.
Så jeg undskylder forsinkelsen, jeg havde helt glemt det :(
Nå, men her kommer den:

---Angora - Kun minderne tilbage---


Tuning: D - A - D - G - Bb - e


Riff 1
e |--------------------------------------
Bb|-----0--------0--------0--------------
G |-----0--------0--------0--------2-----
D |---0---0----0---0----1---1----0-0-0---
A |--------------------------------------
D |-5--------3--------1--------0---------

e |-------------------------------------------------
Bb|-----0--------0--------0------------0-------0----
G |-----0--------0--------0----------2-------2------
D |---0---0----0---0----1---1------0-------0--------
A |------------------------------1------------------
D |-5--------3--------1--------0---------0----------



Riff 2 (Det var så fedt...)
e |--------------------------------------------------------
Bb|-----0--------4--------0--------4--------0--------6-----
G |-----0--------5--------0--------5--------0--------7-----
D |---0---0----5---5----0---0----5---5----0---0----7---7---
A |----------3-----------------3-----------------5---------
D |-5-----------------5-----------------5------------------

e |--------------------
Bb|-----0--------4-----
G |-----0--------5-----
D |---0---0----5---5---
A |----------3---------
D |-5------------------


Riff 3 (Der hvor den skifter toneart)
e |--------------------------------------------------------
Bb|-----2--------6--------2--------6--------2--------8-----
G |-----2--------7--------2--------7--------2--------9-----
D |---2---2----7---7----2---2----7---7----2---2----9---9---
A |-0--------5--------0--------5--------0--------7---------
D |--------------------------------------------------------

e |--------------------
Bb|-----2--------6-----
G |-----2--------7-----
D |---2---2----7---7---
A |-0--------5---------
D |--------------------


Sangen køre i en meget speciel stemning (tuning), se ovenfor, så det skal der gøres opmærksom på......
Ellers er formen sådan:

Intro: Riff1
Vers: Riff1
Omk.: Riff2
Omk. i 2 toneart: Riff3
Outro: Riff3

Det var vist det, stil spørgsmål, hvis du er i tvivl om noget...

/Jakob

Accepteret svar
Fra : jakobbschmidt

Modtaget 50 point
Dato : 04-01-05 14:20

Hov, det ser lidt mærkeligt ud.... Jeg skriver det lige igen, bare lidt tydeligere, med mere afstan mellem tallene......
Ellers kan du/I bare kopiere det jeg skrev i det forrige indlæg over i Word, og så lave skrifttypen om til "Courier New", så passer det hele 100%... Men ellers:

---Angora - Kun minderne tilbage---

Tuning: D - A - D - G - Bb - e


Riff 1
e |----------------------------------------------------
Bb|-------0------------0-----------0------------------
G |-------0------------0-----------0------------2-----
D |----0-----0------0-----0-----1-----1-----0--0--0---
A |----------------------------------------------------
D |-5------------3------------1-----------0------------

e |-------------------------------------------------------------------
Bb|-------0-----------0-----------0------------------0----------0----
G |-------0-----------0-----------0---------------2----------2-------
D |----0-----0-----0-----0-----1-----1---------0----------0---------
A |------------------------------------------1-----------------------
D |-5-----------3------------1------------0-------------0------------



Riff 2 (Det var så fedt...)
e |-------------------------------------------------------------------------------------
Bb|-------0-----------4-------------0-------------4--------------0-------------6-------
G |-------0-----------5-------------0-------------5--------------0-------------7-------
D |----0-----0-----5-----5------0-----0--------5-----5-------0-----0-------7------7---
A |-------------3----------------------------3----------------------------5-------------
D |-5-------------------------5----------------------------5----------------------------

e |----------------------------
Bb|-------0------------4------
G |-------0------------5------
D |----0-----0------5-----5---
A |---------------3------------
D |-5--------------------------


Riff 3 (Der hvor den skifter toneart)
e |--------------------------------------------------------------------------------------
Bb|-------2-------------6-------------2-------------6---------------2------------8------
G |-------2-------------7-------------2-------------7---------------2------------9------
D |----2-----2-------7-----7-------2-----2-------7-----7--------2-----2------9------9---
A |-0-------------5-------------0--------------5--------------0------------7-------------
D |---------------------------------------------------------------------------------------

e |-----------------------------
Bb|-------2------------6-------
G |-------2------------7-------
D |----2-----2------7-----7----
A |-0------------5-------------
D |----------------------------


Intro: Riff1
Vers: Riff1
Omk.: Riff2
Omk. i 2 toneart: Riff3
Outro: Riff3

---------------------------------------------------
Men mit bedste forslag er som sagt, at kopiere mit første indlæg over i word, og lave det hele om til "Courier New".....


/Jakob

Godkendelse af svar
Fra : Elfredo


Dato : 05-01-05 14:54

Tak for svaret jakobbschmidt.
                        

Kommentar
Fra : Elfredo


Dato : 05-01-05 15:01

Men lige en ting til, ang. "kun minderne tilbage".. Når du ovenover dem skriver: Riff 1, 2, 3, osv. er det versene eller hvad.? Og omkvæd i toneart 2..?? Og når du her i bunden skriver rækkefølgen i det.. Intro: Riff 1, Vers: Riff 1.. Hvorfor skriver du det samme.? Ligesom omkvæd, og outro.. Ved godt jeg spørger en masse, men det er jo den eneste måde man lærer det på.... PÅ forhånd tak..

Frederik.

Kommentar
Fra : jakobbschmidt


Dato : 05-01-05 15:06

Et riff er en guitar figur..... Så jeg kalder dem forskellige riffs, hvis jeg nu kaldte det omkvæd (fx), ville det være svært at finde ud af, da det er forskelligt fx. i omkvædet, da den nu skifter toneart.
Så derfor har jeg først lavet rif'sene, sådan som de skal spilles, og bagefter en lille form, så du kan se hvad der skal spilles hvornår. Så når de nu starter sangen, skal du starte med introen, altså riff1. Når verset komme er det også riff1 der spilles, og når 1. omkvæd kommer er det så riff2.... På den måde er det hekle let at finde ud af.....

Jakob

Kommentar
Fra : Elfredo


Dato : 05-01-05 15:21

hmm.. så er jeg lidt mere med.. Tak..


Kommentar
Fra : Elfredo


Dato : 15-01-05 15:06

Til Jacobbsmidt.

Jeg har prøvet at efterspille din tab, og kan ikke helt få det til at lyde som Originalen...
Lyder ikke som det skal synes jeg.. Hvad kan det skyldes..?

Kommentar
Fra : andersdt


Dato : 15-01-05 19:03

<<Til Jacobbsmidt.

<<Jeg har prøvet at efterspille din tab, og kan ikke helt få det til at lyde som Originalen...
<<Lyder ikke som det skal synes jeg.. Hvad kan det skyldes..?


Har du husket at stemme til den rigtige tuning??

Kommentar
Fra : Elfredo


Dato : 15-01-05 20:30

Hvordan er det lige man gør det..?
HAr hørt folk sige det til hinanden herinde før..
Hvad er det man gør der?

Kommentar
Fra : jakobbschmidt


Dato : 16-01-05 10:34

Ok..... Jeg er sikker på at mit tab er rigtigt, men det er klart det lyder dårligt, hvis ikke du stemmer om....
Lad os antage at din guitar er stemt således: Fra den tykke Streng og ned: E - A - D - G - H - e (Normal Tuning).

Nu skal du lave den om til min stemning, altså: D - A - D - G - Bb - e
Du kan gøre det ved at starte med at sige at 3. øverste streng er en D. Du skal også have den øverste streng til at være D, ergo de skal lyde ens. Så du får dem til at lyde ens ved at skrue på stemmeskruerne.
Nu er der altså kun en streng der er "forkert, og det er den anden nederste streng, som istedet for at være H, skal være en halv tone lavere. Det kan du gøre ved at finde den nye tone på et andet bånd. Fx på 3. bånd på 3. nederste streng. Og så stemmer du til de to toner lyder ens.
Så skulle den være der.

Du kan også finde alle tonerne på et klaver, eller ved at købe en tuner.
Det lyder ikke somom du har så vildt meget styr på det der endnu, men det skal nok komme :P

/Jakob

Kommentar
Fra : Elfredo


Dato : 16-01-05 19:27

Tak det lyder lidt besværligt men skal prøve..
Og nej, jeg har ikke helt styr på det endnu.. Har heller ikke spillet så længe jo, men ja det kommer vel..
:)

Du har følgende muligheder
Eftersom du ikke er logget ind i systemet, kan du ikke skrive et indlæg til dette spørgsmål.

Hvis du ikke allerede er registreret, kan du gratis blive medlem, ved at trykke på "Bliv medlem" ude i menuen.
Søg
Reklame
Statistik
Spørgsmål : 176969
Tips : 31936
Nyheder : 719565
Indlæg : 6404899
Brugere : 218803

Månedens bedste
Årets bedste
Sidste års bedste