/ Forside/ Interesser / Fritid / Musik / Spørgsmål
Login
Glemt dit kodeord?
Brugernavn 

Kodeord  


Reklame
Top 10 brugere
Musik
#NavnPoint
Nordsted1 29914
dova 20615
ans 20356
Kazistuta 18027
3773 17419
Klaudi 17348
boibbo 13999
o.v.n. 13226
refi 11088
10  tedd 8774
Becifringer til bas
Fra : Ylwen
Vist : 1727 gange
50 point
Dato : 16-09-04 20:04

Jeg er ved at lære at spille bas guitar, og mangler i den forbindelse en oversigt over hvor jeg finder de forskellige becifringer. EADG kan jo findes mange forskellige steder på brættet?

VH
Torsten Menzel

 
 
Accepteret svar
Fra : 3773

Modtaget 60 point
Dato : 16-09-04 20:28

øhhh

Hvad med lidt simpel tone lære?

Du starte nedefra på f. eks E strenge.

Løs = E
1. bånd = F
2. bånd = F# eller Gb (afhængig af hvod'den du ser det).
3. bånd = G
4 bånd = G# eller Ab
5 bånd = A
6 bånd = Bb
7 bånd = H
8 bånd = C
9 bånd = C# eller Db
10 bånd = D
11 bånd = D# eller Eb
12 bånd = E

og så fortsætter du bare. Overfør derefter til de næste strenge. Rækkefølgen er ens hele tiden.



Kommentar
Fra : 3773


Dato : 16-09-04 20:29

..men søg evt på "bas tabs". Det siges at være nemt at finde rundt i. Selv foretrækker jeg "øret", men jeg er jo også gammel.

Kommentar
Fra : NielsPT


Dato : 16-09-04 23:35

eller tjek denne side: www.mxtabs.net
Vælg bass, nede i højre hjørne, og se derefter hvad siden har at byde på ude i højre side! Der er masser af gode ting.

Mvh Niels

Kommentar
Fra : Ylwen


Dato : 17-09-04 13:07

NielsPT jeg tjekkede dit link, men jeg forstår ikke helt de tabs, men jeg er jo også helt ny hvad dette her angår

Intro/Verse 1(00:04)
|----------------------------|
|----------------------------|
|----------------------------|x6
|-2/7-7--2/6-6--2/4-4--2/6-6-|

Break
|----------------------------------------| |----|
|----------------------------------------| |----|
|-2222-4444-6666-9999-7777-6666-22222222-|x2|-2~-|x1
|----------------------------------------| |----|

Verse 2(01:18)
|----------------------------|
|----------------------------|
|----------------------------|x4
|-2/7-7--2/6-6--2/4-4--2/6-6-|

Chorus
|----------------------------------------| |----|
|----------------------------------------| |----|
|-2222-4444-6666-9999-7777-6666-22222222-|x2|-2~-|x1
|----------------------------------------| |----|

Verse 3(02:15)-no singing
|----------------------------|
|----------------------------|
|----------------------------|x2
|-2/4-4--2/6-6--2/7-7--2/6-6-|

Chorus
|----------------------------------------|
|----------------------------------------|
|-2222-4444-6666-9999-7777-6666-22222222-|x8 fade out on 9th time
|----------------------------------------|


Kommentar
Fra : suspiria


Dato : 18-09-04 13:23

Intro/Verse 1(00:04)
|----------------------------|
|----------------------------|
|----------------------------|x6
|-2/7-7--2/6-6--2/4-4--2/6-6-|

2/7 - Betyder at du skal slå 2nd bånd an og straks efter glide videre ned til bånd 7..

Tjek evt. dette link for flere detaljer: http://www.olga.net/faq/tabbing.php


Godkendelse af svar
Fra : Ylwen


Dato : 19-09-04 14:09

Ja, i har jo alle været til stor hjælp og jeg kan desværre kun give point til en af jer. 3773 var sådan set den der svarede mest præcist på mit spørgsmål så han får point.

3773 -> vil det så sige at på streng 2 ser det ud som følger:

Løs = A
1 bånd = Bb
2 bånd = H
3 bånd = C
4 bånd = C# eller Db
5 bånd = D
6 bånd = D# eller Eb
7 bånd = E

eller hva'               

Du har følgende muligheder
Eftersom du ikke er logget ind i systemet, kan du ikke skrive et indlæg til dette spørgsmål.

Hvis du ikke allerede er registreret, kan du gratis blive medlem, ved at trykke på "Bliv medlem" ude i menuen.
Søg
Reklame
Statistik
Spørgsmål : 173357
Tips : 31646
Nyheder : 719565
Indlæg : 6381634
Brugere : 218245

Månedens bedste
Årets bedste
Sidste års bedste